0
SECTION
2
HEADER
9
$INSUNITS
70
4
9
$ACADVER
1
AC1014
9
$HANDSEED
5
FFFF
0
ENDSEC
0
SECTION
2
TABLES
0
TABLE
2
VPORT
5
8
100
AcDbSymbolTable
0
ENDTAB
0
TABLE
2
LTYPE
5
5
100
AcDbSymbolTable
0
LTYPE
5
14
100
AcDbSymbolTableRecord
100
AcDbLinetypeTableRecord
2
BYBLOCK
70
0
0
LTYPE
5
15
100
AcDbSymbolTableRecord
100
AcDbLinetypeTableRecord
2
BYLAYER
70
0
0
ENDTAB
0
TABLE
2
LAYER
5
2
100
AcDbSymbolTable
70
2
0
LAYER
5
50
100
AcDbSymbolTableRecord
100
AcDbLayerTableRecord
2
0
70
0
6
CONTINUOUS
0
ENDTAB
0
TABLE
2
STYLE
5
3
100
AcDbSymbolTable
70
1
0
STYLE
5
11
100
AcDbSymbolTableRecord
100
AcDbTextStyleTableRecord
2
STANDARD
70
0
0
ENDTAB
0
TABLE
2
VIEW
5
6
100
AcDbSymbolTable
70
0
0
ENDTAB
0
TABLE
2
UCS
5
7
100
AcDbSymbolTable
70
0
0
ENDTAB
0
TABLE
2
APPID
5
9
100
AcDbSymbolTable
70
2
0
APPID
5
12
100
AcDbSymbolTableRecord
100
AcDbRegAppTableRecord
2
ACAD
70
0
0
ENDTAB
0
TABLE
2
DIMSTYLE
5
A
100
AcDbSymbolTable
70
1
0
ENDTAB
0
TABLE
2
BLOCK_RECORD
5
1
100
AcDbSymbolTable
70
1
0
BLOCK_RECORD
5
1F
100
AcDbSymbolTableRecord
100
AcDbBlockTableRecord
2
*MODEL_SPACE
0
BLOCK_RECORD
5
1B
100
AcDbSymbolTableRecord
100
AcDbBlockTableRecord
2
*PAPER_SPACE
0
ENDTAB
0
ENDSEC
0
SECTION
2
BLOCKS
0
BLOCK
5
20
100
AcDbEntity
100
AcDbBlockBegin
2
*MODEL_SPACE
0
ENDBLK
5
21
100
AcDbEntity
100
AcDbBlockEnd
0
BLOCK
5
1C
100
AcDbEntity
100
AcDbBlockBegin
2
*PAPER_SPACE
0
ENDBLK
5
1D
100
AcDbEntity
100
AcDbBlockEnd
0
ENDSEC
0
SECTION
2
ENTITIES
0
CIRCLE
5
100
100
AcDbEntity
8
0
100
AcDbCircle
10
94.816232200951745
20
-59.20789661729011
30
0
40
1.100000000000001
210
0
220
-0
230
1
0
CIRCLE
5
101
100
AcDbEntity
8
0
100
AcDbCircle
10
54.816232200951724
20
-59.207896617290089
30
0
40
1.1000000000000032
210
0
220
-0
230
1
0
LWPOLYLINE
5
102
100
AcDbEntity
8
0
100
AcDbPolyline
90
2
70
1
43
0.0
10
71.042308704111875
20
-40.240148931513595
42
-5.385164807134478
10
78.59015569779163
20
-40.240148931513602
0
LWPOLYLINE
5
103
100
AcDbEntity
8
0
100
AcDbPolyline
90
12
70
1
43
0.0
10
87.954911801629052
20
-54.939787744122654
10
83.299125482730787
20
-50.118579876372102
42
0.20345229942369603
10
81.860445882053483
20
-49.507896617290108
10
67.772018519849993
20
-49.507896617290108
42
0.20345229942370657
10
66.333338919172689
20
-50.11857987637211
10
61.677552600274424
20
-54.93978774412264
42
0.19438030913770774
10
61.116232200951728
20
-56.329104485040631
10
61.116232200951721
20
-65.207896617290075
42
0.41421356237309997
10
64.816232200951745
20
-68.907896617290092
10
84.816232200951703
20
-68.907896617290106
42
0.41421356237309925
10
88.51623220095172
20
-65.207896617290089
10
88.516232200951762
20
-56.329104485040666
42
0.19438030913771792
0
LWPOLYLINE
5
104
100
AcDbEntity
8
0
100
AcDbPolyline
90
36
70
1
43
0.0
10
104.94250297546387
20
-63.350002288818359
10
109.94250297546387
20
-63.350002288818359
10
109.94250297546387
20
-76.350002288818359
10
91.942502975463867
20
-76.350002288818359
10
91.942502975463867
20
-81.350002288818359
10
73.942502975463867
20
-81.350002288818359
10
73.942502975463867
20
-76.350002288818345
10
55.942502975463867
20
-76.350002288818359
10
55.942502975463867
20
-81.350002288818359
10
37.942502975463867
20
-81.350002288818359
10
37.942502975463867
20
-76.350002288818345
10
19.942502975463864
20
-76.350002288818345
10
19.942502975463867
20
-63.350002288818352
10
24.942502975463867
20
-63.350002288818352
10
24.942502975463867
20
-50.350002288818352
10
19.942502975463864
20
-50.350002288818352
10
19.942502975463867
20
-37.350002288818345
10
24.942502975463867
20
-37.350002288818345
10
24.942502975463867
20
-24.350002288818349
10
19.942502975463864
20
-24.350002288818349
10
19.942502975463874
20
-11.350002288818349
10
37.942502975463874
20
-11.35000228881835
10
37.942502975463874
20
-6.3500022888183487
10
55.942502975463874
20
-6.3500022888183505
10
55.942502975463874
20
-11.350002288818358
10
73.942502975463881
20
-11.350002288818359
10
73.942502975463881
20
-6.3500022888183576
10
91.942502975463881
20
-6.3500022888183594
10
91.942502975463867
20
-11.350002288818358
10
109.94250297546387
20
-11.350002288818359
10
109.94250297546387
20
-24.350002288818359
10
104.94250297546387
20
-24.350002288818359
10
104.94250297546387
20
-37.350002288818359
10
109.94250297546387
20
-37.350002288818359
10
109.94250297546387
20
-50.350002288818359
10
104.94250297546387
20
-50.350002288818359
0
LWPOLYLINE
5
105
100
AcDbEntity
8
0
100
AcDbPolyline
90
8
70
1
43
0.0
10
32.532502989605561
20
-53.850002288818345
42
-0.41421356237311457
10
32.73250298960555
20
-53.650002288818328
10
45.832502989605558
20
-53.650002288818477
42
-0.41421356237321211
10
46.032502989605547
20
-53.850002288818359
10
46.032502989605533
20
-69.350002288818359
42
-0.41421356237310802
10
45.83250298960553
20
-69.550002288818362
10
32.732502989605536
20
-69.550002288818348
42
-0.41421356237307549
10
32.532502989605526
20
-69.350002288818345
0
LWPOLYLINE
5
106
100
AcDbEntity
8
0
100
AcDbPolyline
90
4
70
1
43
0.0
10
49.192222055678442
20
-35.607202193361346
10
32.613802258166231
20
-35.607202193361346
10
32.613802258166224
20
-50.093070667937276
10
49.192222055678442
20
-50.093070667937276
0
LWPOLYLINE
5
107
100
AcDbEntity
8
0
100
AcDbPolyline
90
10
70
1
43
0.0
10
49.135137851890669
20
-17.400991487919548
10
47.735137863675448
20
-17.400809836070927
10
41.932502989605638
20
-17.400002288818357
10
39.532502989605632
20
-17.400002288818346
10
32.130940479746435
20
-17.399041926301322
10
32.630940373476548
20
-17.399367916923126
10
32.62122837512603
20
-32.295496266442555
10
39.532502989605611
20
-32.300002288818348
10
41.932502989605609
20
-32.300002288818355
10
49.133204564323051
20
-32.300936589363609
0
CIRCLE
5
108
100
AcDbEntity
8
0
100
AcDbCircle
10
239.79247856140137
20
-17.350003719329866
30
0
40
1.3500000000000001
210
-0
220
0
230
1
0
CIRCLE
5
109
100
AcDbEntity
8
0
100
AcDbCircle
10
127.29247856140135
20
-17.350003719329841
30
0
40
1.3500000000000001
210
-0
220
0
230
1
0
CIRCLE
5
110
100
AcDbEntity
8
0
100
AcDbCircle
10
239.79247856140137
20
-85.350003759520533
30
0
40
1.3499999999999979
210
-0
220
0
230
1
0
CIRCLE
5
111
100
AcDbEntity
8
0
100
AcDbCircle
10
127.29247856140134
20
-85.350003719329834
30
0
40
1.3499999999999979
210
-0
220
0
230
1
0
LWPOLYLINE
5
112
100
AcDbEntity
8
0
100
AcDbPolyline
90
8
70
1
43
0.0
10
240.7924785614014
20
-66.350003719329862
10
240.7924785614014
20
-36.350003719329862
42
0.41421356237309698
10
220.79247856140137
20
-16.350003719329859
10
146.29247856140137
20
-16.350003719329841
42
0.4142135623730952
10
126.29247856140134
20
-36.350003719329834
10
126.29247856140134
20
-66.350003719329834
42
0.41421356237309526
10
146.29247856140134
20
-86.350003719329834
10
220.79247856140131
20
-86.350003719329862
42
0.41421356237309542
0
LWPOLYLINE
5
113
100
AcDbEntity
8
0
100
AcDbPolyline
90
52
70
1
43
0.0
10
231.95914522806802
20
-96.350003719329862
10
231.95914522806802
20
-91.350003719329862
10
218.12581189473468
20
-91.350003719329862
10
218.12581189473468
20
-96.350003719329862
10
204.29247856140134
20
-96.350003719329862
10
204.29247856140134
20
-91.350003719329862
10
190.459145228068
20
-91.350003719329862
10
190.459145228068
20
-96.350003719329862
10
176.62581189473468
20
-96.350003719329862
10
176.62581189473468
20
-91.350003719329862
10
162.79247856140134
20
-91.350003719329862
10
162.79247856140134
20
-96.350003719329834
10
148.95914522806802
20
-96.350003719329834
10
148.959145228068
20
-91.350003719329834
10
135.12581189473468
20
-91.350003719329834
10
135.12581189473468
20
-96.350003719329834
10
116.29247856140134
20
-96.350003719329834
10
116.29247856140134
20
-78.350003719329834
10
121.29247856140134
20
-78.350003719329834
10
121.29247856140134
20
-60.350003719329841
10
116.29247856140137
20
-60.350003719329841
10
116.29247856140134
20
-42.350003719329834
10
121.29247856140137
20
-42.350003719329834
10
121.29247856140137
20
-24.350003719329834
10
116.29247856140137
20
-24.350003719329834
10
116.29247856140137
20
-6.3500037193298375
10
135.12581189473468
20
-6.350003719329842
10
135.12581189473468
20
-11.350003719329845
10
148.95914522806802
20
-11.350003719329846
10
148.959145228068
20
-6.3500037193298446
10
162.79247856140134
20
-6.3500037193298464
10
162.79247856140134
20
-11.350003719329848
10
176.62581189473468
20
-11.350003719329852
10
176.62581189473471
20
-6.3500037193298509
10
190.45914522806805
20
-6.3500037193298553
10
190.45914522806805
20
-11.350003719329855
10
204.29247856140137
20
-11.350003719329857
10
204.29247856140137
20
-6.3500037193298562
10
218.12581189473468
20
-6.3500037193298597
10
218.12581189473468
20
-11.350003719329862
10
231.95914522806805
20
-11.350003719329864
10
231.95914522806805
20
-6.3500037193298633
10
250.7924785614014
20
-6.3500037193298642
10
250.7924785614014
20
-24.350003719329862
10
245.7924785614014
20
-24.350003719329862
10
245.7924785614014
20
-42.35000371932987
10
250.79247856140137
20
-42.350003719329862
10
250.79247856140137
20
-60.35000371932987
10
245.79247856140137
20
-60.35000371932987
10
245.79247856140137
20
-78.350003719329862
10
250.79247856140137
20
-78.350003719329877
10
250.79247856140137
20
-96.350003719329862
0
CIRCLE
5
114
100
AcDbEntity
8
0
100
AcDbCircle
10
203.29247856140142
20
-115.70000076293945
30
0
40
1.0250000000000004
210
0
220
-0
230
1
0
CIRCLE
5
115
100
AcDbEntity
8
0
100
AcDbCircle
10
145.29247856140137
20
-115.70000076293944
30
0
40
1.0249999999999915
210
0
220
-0
230
1
0
CIRCLE
5
116
100
AcDbEntity
8
0
100
AcDbCircle
10
203.2924785614014
20
-164.70000076293942
30
0
40
1.0250000000000004
210
0
220
-0
230
1
0
CIRCLE
5
117
100
AcDbEntity
8
0
100
AcDbCircle
10
145.2924785614014
20
-164.70000076293951
30
0
40
1.0250000000000092
210
0
220
-0
230
1
0
LWPOLYLINE
5
118
100
AcDbEntity
8
0
100
AcDbPolyline
90
52
70
1
43
0.0
10
231.95914522806805
20
-107.70000076293947
10
245.7924785614014
20
-107.70000076293947
10
245.7924785614014
20
-120.70000076293945
10
250.7924785614014
20
-120.70000076293948
10
250.7924785614014
20
-133.70000076293945
10
245.7924785614014
20
-133.70000076293945
10
245.7924785614014
20
-146.70000076293948
10
250.7924785614014
20
-146.70000076293948
10
250.7924785614014
20
-159.70000076293948
10
245.7924785614014
20
-159.70000076293945
10
245.7924785614014
20
-172.70000076293945
10
231.95914522806805
20
-172.70000076293945
10
231.95914522806805
20
-177.70000076293945
10
218.12581189473474
20
-177.70000076293945
10
218.12581189473474
20
-172.70000076293945
10
204.2924785614014
20
-172.70000076293945
10
204.29247856140137
20
-177.70000076293945
10
190.45914522806805
20
-177.70000076293945
10
190.45914522806805
20
-172.70000076293945
10
176.62581189473471
20
-172.70000076293945
10
176.62581189473471
20
-177.70000076293945
10
162.79247856140137
20
-177.70000076293945
10
162.79247856140137
20
-172.70000076293945
10
148.95914522806802
20
-172.70000076293945
10
148.95914522806802
20
-177.70000076293945
10
135.12581189473471
20
-177.70000076293945
10
135.12581189473471
20
-172.70000076293945
10
121.29247856140138
20
-172.70000076293945
10
121.29247856140138
20
-159.70000076293948
10
116.29247856140138
20
-159.70000076293945
10
116.29247856140138
20
-146.70000076293948
10
121.29247856140138
20
-146.70000076293948
10
121.29247856140138
20
-133.70000076293945
10
116.29247856140138
20
-133.70000076293945
10
116.29247856140138
20
-120.70000076293945
10
121.29247856140138
20
-120.70000076293948
10
121.29247856140138
20
-107.70000076293947
10
135.12581189473471
20
-107.70000076293947
10
135.12581189473471
20
-102.70000076293947
10
148.95914522806802
20
-102.70000076293947
10
148.95914522806802
20
-107.70000076293947
10
162.79247856140137
20
-107.70000076293947
10
162.79247856140137
20
-102.70000076293947
10
176.62581189473471
20
-102.70000076293947
10
176.62581189473471
20
-107.70000076293947
10
190.45914522806805
20
-107.70000076293947
10
190.45914522806808
20
-102.70000076293947
10
204.2924785614014
20
-102.70000076293947
10
204.2924785614014
20
-107.70000076293947
10
218.12581189473474
20
-107.70000076293947
10
218.12581189473474
20
-102.70000076293947
10
231.95914522806805
20
-102.70000076293947
0
CIRCLE
5
119
100
AcDbEntity
8
0
100
AcDbCircle
10
30.042472457885729
20
-102.80000839233396
30
0
40
1.0249999999999915
210
0
220
-0
230
1
0
CIRCLE
5
120
100
AcDbEntity
8
0
100
AcDbCircle
10
99.842472457885734
20
-102.80000839233401
30
0
40
1.0250000000000004
210
0
220
-0
230
1
0
CIRCLE
5
121
100
AcDbEntity
8
0
100
AcDbCircle
10
30.042472457885712
20
-147.60000839233405
30
0
40
1.0249999999999915
210
0
220
-0
230
1
0
CIRCLE
5
122
100
AcDbEntity
8
0
100
AcDbCircle
10
99.842472457885719
20
-147.60000839233402
30
0
40
1.0250000000000004
210
0
220
-0
230
1
0
LWPOLYLINE
5
123
100
AcDbEntity
8
0
100
AcDbPolyline
90
36
70
1
43
0.0
10
104.94247245788573
20
-144.70000839233398
10
109.94247245788573
20
-144.70000839233398
10
109.94247245788574
20
-157.70000839233398
10
91.942472457885742
20
-157.70000839233398
10
91.942472457885742
20
-162.70000839233398
10
73.942472457885756
20
-162.70000839233398
10
73.942472457885756
20
-157.70000839233398
10
55.942472457885742
20
-157.70000839233398
10
55.942472457885742
20
-162.70000839233398
10
37.942472457885749
20
-162.70000839233398
10
37.942472457885749
20
-157.70000839233398
10
19.942472457885749
20
-157.70000839233398
10
19.942472457885749
20
-144.70000839233398
10
24.942472457885749
20
-144.70000839233398
10
24.942472457885749
20
-131.70000839233398
10
19.942472457885749
20
-131.70000839233398
10
19.942472457885749
20
-118.70000839233398
10
24.942472457885749
20
-118.70000839233398
10
24.942472457885749
20
-105.700008392334
10
19.942472457885749
20
-105.70000839233398
10
19.942472457885749
20
-92.700008392333984
10
37.942472457885749
20
-92.700008392333984
10
37.942472457885749
20
-87.700008392333984
10
55.942472457885742
20
-87.700008392333984
10
55.942472457885742
20
-92.700008392333984
10
73.942472457885756
20
-92.700008392333984
10
73.942472457885742
20
-87.700008392333984
10
91.942472457885742
20
-87.700008392333984
10
91.942472457885742
20
-92.700008392333984
10
109.94247245788574
20
-92.700008392334013
10
109.94247245788573
20
-105.700008392334
10
104.94247245788573
20
-105.70000839233398
10
104.94247245788573
20
-118.70000839233398
10
109.94247245788573
20
-118.70000839233398
10
109.94247245788573
20
-131.70000839233398
10
104.94247245788573
20
-131.70000839233398
0
LWPOLYLINE
5
124
100
AcDbEntity
8
0
100
AcDbPolyline
90
52
70
1
43
0.0
10
275.97581799825031
20
-172.70000076293945
10
262.14248466491699
20
-172.70000076293945
10
262.14248466491699
20
-159.70000076293945
10
257.14248466491699
20
-159.70000076293942
10
257.14248466491699
20
-146.70000076293942
10
262.14248466491699
20
-146.70000076293942
10
262.14248466491699
20
-133.70000076293942
10
257.14248466491699
20
-133.7000007629394
10
257.14248466491699
20
-120.70000076293942
10
262.14248466491699
20
-120.70000076293944
10
262.14248466491699
20
-107.70000076293942
10
275.97581799825036
20
-107.70000076293942
10
275.97581799825036
20
-102.70000076293945
10
289.80915133158368
20
-102.70000076293945
10
289.80915133158368
20
-107.70000076293945
10
303.64248466491705
20
-107.70000076293945
10
303.64248466491705
20
-102.70000076293945
10
317.47581799825036
20
-102.70000076293945
10
317.47581799825036
20
-107.70000076293945
10
331.30915133158368
20
-107.70000076293945
10
331.30915133158373
20
-102.70000076293945
10
345.14248466491711
20
-102.70000076293945
10
345.14248466491699
20
-107.70000076293945
10
358.97581799825036
20
-107.70000076293945
10
358.97581799825042
20
-102.70000076293945
10
372.80915133158373
20
-102.70000076293945
10
372.80915133158368
20
-107.70000076293945
10
386.64248466491699
20
-107.70000076293947
10
386.64248466491699
20
-120.70000076293945
10
391.64248466491699
20
-120.70000076293944
10
391.64248466491699
20
-133.70000076293945
10
386.64248466491699
20
-133.70000076293945
10
386.64248466491699
20
-146.70000076293945
10
391.64248466491699
20
-146.70000076293945
10
391.64248466491699
20
-159.70000076293945
10
386.64248466491699
20
-159.70000076293945
10
386.64248466491705
20
-172.70000076293945
10
372.80915133158373
20
-172.70000076293945
10
372.80915133158368
20
-177.70000076293945
10
358.97581799825036
20
-177.70000076293945
10
358.97581799825042
20
-172.70000076293945
10
345.14248466491711
20
-172.70000076293945
10
345.14248466491699
20
-177.70000076293945
10
331.30915133158368
20
-177.70000076293945
10
331.30915133158368
20
-172.70000076293945
10
317.47581799825036
20
-172.70000076293945
10
317.47581799825036
20
-177.70000076293945
10
303.64248466491699
20
-177.70000076293945
10
303.64248466491699
20
-172.70000076293945
10
289.80915133158368
20
-172.70000076293945
10
289.80915133158368
20
-177.70000076293945
10
275.97581799825031
20
-177.70000076293945
0
LWPOLYLINE
5
125
100
AcDbEntity
8
0
100
AcDbPolyline
90
52
70
1
43
0.0
10
275.97581799825031
20
-96.350003719329834
10
257.14248466491699
20
-96.350003719329834
10
257.14248466491699
20
-78.350003719329834
10
262.14248466491699
20
-78.350003719329834
10
262.14248466491699
20
-60.350003719329841
10
257.14248466491699
20
-60.350003719329841
10
257.14248466491699
20
-42.350003719329834
10
262.14248466491699
20
-42.350003719329834
10
262.14248466491699
20
-24.350003719329834
10
257.14248466491699
20
-24.350003719329834
10
257.14248466491699
20
-6.3500037193298375
10
275.97581799825031
20
-6.350003719329842
10
275.97581799825031
20
-11.350003719329845
10
289.80915133158368
20
-11.350003719329846
10
289.80915133158362
20
-6.3500037193298455
10
303.64248466491699
20
-6.3500037193298482
10
303.64248466491699
20
-11.350003719329848
10
317.47581799825031
20
-11.350003719329852
10
317.47581799825036
20
-6.3500037193298509
10
331.30915133158368
20
-6.3500037193298553
10
331.30915133158362
20
-11.350003719329857
10
345.14248466491694
20
-11.350003719329857
10
345.14248466491699
20
-6.3500037193298571
10
358.97581799825036
20
-6.3500037193298597
10
358.97581799825042
20
-11.350003719329862
10
372.80915133158373
20
-11.350003719329864
10
372.80915133158368
20
-6.3500037193298633
10
391.64248466491699
20
-6.3500037193298642
10
391.64248466491699
20
-24.350003719329862
10
386.64248466491699
20
-24.350003719329862
10
386.64248466491699
20
-42.35000371932987
10
391.64248466491699
20
-42.350003719329862
10
391.64248466491699
20
-60.35000371932987
10
386.64248466491699
20
-60.35000371932987
10
386.64248466491699
20
-78.350003719329862
10
391.64248466491699
20
-78.350003719329877
10
391.64248466491694
20
-96.350003719329862
10
372.80915133158362
20
-96.350003719329862
10
372.80915133158368
20
-91.350003719329862
10
358.97581799825036
20
-91.350003719329862
10
358.97581799825025
20
-96.350003719329862
10
345.14248466491694
20
-96.350003719329862
10
345.14248466491699
20
-91.350003719329862
10
331.30915133158368
20
-91.350003719329862
10
331.30915133158368
20
-96.350003719329862
10
317.47581799825031
20
-96.350003719329862
10
317.47581799825031
20
-91.350003719329862
10
303.64248466491699
20
-91.350003719329862
10
303.64248466491699
20
-96.350003719329834
10
289.80915133158368
20
-96.350003719329834
10
289.80915133158368
20
-91.350003719329834
10
275.97581799825031
20
-91.350003719329834
0
ENDSEC
0
SECTION
2
OBJECTS
0
DICTIONARY
5
C
100
AcDbDictionary
3
ACAD_GROUP
350
D
3
ACAD_MLINESTYLE
350
17
0
DICTIONARY
5
D
100
AcDbDictionary
0
DICTIONARY
5
1A
330
C
100
AcDbDictionary
0
DICTIONARY
5
17
100
AcDbDictionary
0
ENDSEC
0
EOF
